Daniel Landa - Chlapeček z periferie - bass tab (taby)

27. července 2007 v 17:54 |  taby BASS,GITAR
Daniel Landa - Chlapeček z periferie - bass tab (taby)
Daniel Landa - Chlapeček z periferie
Bass tab
Sloha:
G|-----------------------------------
D|7-9-7---------------9-12---------9-
A|------7-8-8-10-8-10---------8-10---
E|-------------------------10--------
Refren:
G|------------------------------------
D|--9-12-9--------------7--------9----
A|7----------9-12-9-5-8---8-7-10---10-
E|---------7--------------------------
 

1 člověk ohodnotil tento článek.

Komentáře

1 Kuba Kuba | Web | 27. července 2007 v 18:10 | Reagovat

Cau na mim blogu je bleskovka3 tak se pls prihlas a chod pls na muj blog

Cau na mim blogu je bleskovka3 tak se pls prihlas a chod pls na muj blog

Cau na mim blogu je bleskovka3 tak se pls prihlas a chod pls na muj blog

2 mig222 mig222 | Web | 27. července 2007 v 18:38 | Reagovat

snažím se udělat rekord v komentářích, přidej nějakej  a napiš co na diplom

3 Andík Andík | Web | 27. července 2007 v 21:08 | Reagovat

Ahojik na mým blogu je bleskovka..

http://annhol.blog.cz/0707/bleskovka-2

Nový komentář

Přihlásit se
  Ještě nemáte vlastní web? Můžete si jej zdarma založit na Blog.cz.
 

Aktuální články

Reklama